Sunday, February 9, 2014

[Yadon Ki Barat] Yaadon Ki Baaraat Guitar Tabs


===========================================
Film: Yaadon Ki Baaraat
Song: Yaadon Ki Baaraat
Singer: Kishore Kumar
===========================================


Scale details, which i have used to play the song
===========================================
Scale: E Minor Scale
Picking: Alternate picking


Symbols:
========
b = bending
p = pull off
h = hammering
s = sliding
~ = vibrato
. = staccato
[] = play the note very fast / optional



Note:
=====
Please copy paste the tabs to notepad for better spacing, formatting and readability.
For note transitions, articulations (slides, bends, connecting notes), please refer to my below video.




===========
INTRO....
===========


E-----------------------------------------------------------------------
B----7h8--7-------------------------------------------------------------
G-----------------------------------------------------------------------
D--9--------------------------------------------------------------------
A-----------------------------------------------------------------------
E-----------------------------------------------------------------------


E-----------------------------------------------------------------------
B--8-7------------------------------------------------------------------
G------9-7--------------------------------------------------------------
D-----------------------------------------------------------------------
A-----------------------------------------------------------------------
E-----------------------------------------------------------------------


E-----------------------------------------------------------------------
B----7h8--7-------------------------------------------------------------
G-----------------------------------------------------------------------
D--9--------------------------------------------------------------------
A-----------------------------------------------------------------------
E-----------------------------------------------------------------------


E-----------------------------------------------------------------------
B--8-7------------------------------------------------------------------
G------9-7--------------------------------------------------------------
D-----------------------------------------------------------------------
A-----------------------------------------------------------------------
E-----------------------------------------------------------------------



E-----------------------------------------------------------------------
B----7h8--7-------------------------------------------------------------
G-----------------------------------------------------------------------
D--7--------------------------------------------------------------------
A-----------------------------------------------------------------------
E-----------------------------------------------------------------------


E-----------------------------------------------------------------------
B--8--------------------------------------------------------------------
G----9------------------------------------------------------------------
D-----------------------------------------------------------------------
A-----------------------------------------------------------------------
E-----------------------------------------------------------------------



===========
  Mukhda
===========

E-----12-----------10--------8------------------------------------------
B--12-----12----10----10---8---8------7---------------------------------
G-----------------------------------------------------------------------
D-----------------------------------------------------------------------
A-----------------------------------------------------------------------
E-----------------------------------------------------------------------
  yadoon ki     baraat    nikli hai  aaj



E--------7s8--7---------------------------------------------------------
B----8------------------------------------------------------------------
G--9--------------------------------------------------------------------
D-----------------------------------------------------------------------
A-----------------------------------------------------------------------
E-----------------------------------------------------------------------
  dil ke dware

[Repeat above]



E--8p7----------------------7-------------------------------------------
B-------10-10-10--10-10-------10-8-7------------------------------------
G-----------------------------------------------------------------------
D-----------------------------------------------------------------------
A-----------------------------------------------------------------------
E-----------------------------------------------------------------------
  hoo  chhedo   taranee     milan ke


E--------7s8--7---------------------------------------------------------
B----8------------------------------------------------------------------
G--9--------------------------------------------------------------------
D-----------------------------------------------------------------------
A-----------------------------------------------------------------------
E-----------------------------------------------------------------------
  pyare  pyare




E--------7s8--7---------------------------------------------------------
B----8------------------------------------------------------------------
G--9--------------------------------------------------------------------
D-----------------------------------------------------------------------
A-----------------------------------------------------------------------
E-----------------------------------------------------------------------
  sang hamare



===========
  Stanza
===========

E--7-8-10s12-10---------------------------------------------------------
B-----------------------------------------------------------------------
G-----------------------------------------------------------------------
D-----------------------------------------------------------------------
A-----------------------------------------------------------------------
E-----------------------------------------------------------------------
  badle    naaa



E--7-8-10s12-10---------------------------------------------------------
B-----------------------------------------------------------------------
G-----------------------------------------------------------------------
D-----------------------------------------------------------------------
A-----------------------------------------------------------------------
E-----------------------------------------------------------------------
  aapna yeee



E--10s12--10-8------8-7-------------------------------------------------
B----------------------10-----------------------------------------------
G-----------------------------------------------------------------------
D-----------------------------------------------------------------------
A-----------------------------------------------------------------------
E-----------------------------------------------------------------------
  aaa....alam   kabhiiiii



E-----7-8s10--8---------------------------------------------------------
B--10-------------------------------------------------------------------
G-----------------------------------------------------------------------
D-----------------------------------------------------------------------
A-----------------------------------------------------------------------
E-----------------------------------------------------------------------
  jeevan...  main



E--8-7------------------------------------------------------------------
B------10s12-10---------------------------------------------------------
G-----------------------------------------------------------------------
D-----------------------------------------------------------------------
A-----------------------------------------------------------------------
E-----------------------------------------------------------------------
  bichhedenge




E-----------------------------------------------------------------------
B--10--10s12-10--8-8----------------------------------------------------
G-----------------------------------------------------------------------
D-----------------------------------------------------------------------
A-----------------------------------------------------------------------
E-----------------------------------------------------------------------
  naa   humm     kabhi



E-----------------------------------------------------------------------
B---8p7-----------------------------------------------------------------
G-------9---------------------------------------------------------------
D-----------------------------------------------------------------------
A-----------------------------------------------------------------------
E-----------------------------------------------------------------------
  youn hi


E-----------------------------------------------------------------------
B--12p10----------------------------------------------------------------
G--------12-------------------------------------------------------------
D-----------------------------------------------------------------------
A-----------------------------------------------------------------------
E-----------------------------------------------------------------------
  jaoge


E-----------------------------------------------------------------------
B--10-------------------------------------------------------------------
G-----11----------------------------------------------------------------
D-----------------------------------------------------------------------
A-----------------------------------------------------------------------
E-----------------------------------------------------------------------
  aage


E--8--------------------------------------------------------------------
B----10-----------------------------------------------------------------
G-----------------------------------------------------------------------
D-----------------------------------------------------------------------
A-----------------------------------------------------------------------
E-----------------------------------------------------------------------
  kahan



E-----10---10-8-7-------------------------------------------------------
B--10-------------------------------------------------------------------
G-----------------------------------------------------------------------
D-----------------------------------------------------------------------
A-----------------------------------------------------------------------
E-----------------------------------------------------------------------
 hoke     hamare


===========
Repeate [Stanza]
Repeat [Mukhda]
===========


Appreciate your likes, comments, suggestions, sharing, subscribing :) :)

Saturday, January 25, 2014

[Jawani Diwani] Jaaneja Dhundhata Phir Raha Guitar Tab


===========================================
Film: Jawani Diwani
Song: Jaaneja Dhundhata Phir Raha
Singer: Kishore & Asha
===========================================


Scale details, which i have used to play the song
===========================================
Scale: C Minor Scale
Picking: Alternate picking

Symbols:
========
b = bending
p = pull off
h = hammering
s = sliding
~ = vibrato
. = staccato
[] = play the note very fast / optional



Note:
=====
Please copy paste the tabs to notepad for better spacing, formatting and readability.
For articulations like, slide hammering and pull offs please watch the video.



===========
INTRO....
===========


E--7-6------------------------------------------------------------------
B------8----------------------------------------------------------------
G--------8-6------------------------------------------------------------
D-------------9-8-6-5---------------------------------------------------
A-----------------------------------------------------------------------
E-----------------------------------------------------------------------

Play Cm Barre Chord


E--8--6-6h8p6-----------------------------------------------------------
B-------------8---------------------------------------------------------
G-----------------------------------------------------------------------
D-----------------------------------------------------------------------
A-----------------------------------------------------------------------
E-----------------------------------------------------------------------

Play F Barree Chord



E--8--6-5-5h6p5---------------------------------------------------------
B----------------8-6----------------------------------------------------
G-----------------------------------------------------------------------
D-----------------------------------------------------------------------
A-----------------------------------------------------------------------
E-----------------------------------------------------------------------

Play Eb Barre Chord


E--6-6-5----------------------------------------------------------------
B-----------6-----------------------------------------------------------
G-----------------------------------------------------------------------
D-----------------------------------------------------------------------
A-----------------------------------------------------------------------
E-----------------------------------------------------------------------

Play F Barree Chord


E-----------------------------------------------------------------------
B--10-8-8---------------------------------------------------------------
G-----------------------------------------------------------------------
D-----------------------------------------------------------------------
A-----------------------------------------------------------------------
E-----------------------------------------------------------------------


Play Cm Barre chord

DDDD DUDUDUDU

[DD UUDUDU] - Repeat for the rest of the rythms


===========
  Mukhda
===========

E---8-6---6h8p6---------------------------------------------------------
B---------------8-------------------------------------------------------
G-----------------------------------------------------------------------
D-----------------------------------------------------------------------
A-----------------------------------------------------------------------
E-----------------------------------------------------------------------
  jaane    jaan



E------5----------------------------------------------------------------
B--8-8---------8-6-6----------------------------------------------------
G-----------------------------------------------------------------------
D-----------------------------------------------------------------------
A-----------------------------------------------------------------------
E-----------------------------------------------------------------------
  dhoondta     phir raha




E-----------------------------------------------------------------------
B--6-6-8-------8s11-11-10-----------------------------------------------
G-----------------------------------------------------------------------
D-----------------------------------------------------------------------
A-----------------------------------------------------------------------
E-----------------------------------------------------------------------
  hoon tumhen     raat din



E-----------------------------------------------------------------------
B--------8------10-8-8--------------------------------------------------
G--10-10----------------------------------------------------------------
D-----------------------------------------------------------------------
A-----------------------------------------------------------------------
E-----------------------------------------------------------------------
  Main yahaan   se wahaaan




E--8-8-8s11----11-13-10-------------------------------------------------
B-----------------------------------------------------------------------
G-----------------------------------------------------------------------
D-----------------------------------------------------------------------
A-----------------------------------------------------------------------
E-----------------------------------------------------------------------
  Mujh ko      Aawaaz do



E--8-8-8s11----11-13-10-------------------------------------------------
B-----------------------------------------------------------------------
G-----------------------------------------------------------------------
D-----------------------------------------------------------------------
A-----------------------------------------------------------------------
E-----------------------------------------------------------------------
  Chup gaye   ho sanam



E-----------------------11-11-10----------------------------------------
B--13-11-11s13----------------------------------------------------------
G--------------12-------------------------------------------------------
D-----------------------------------------------------------------------
A-----------------------------------------------------------------------
E-----------------------------------------------------------------------
  Tum Kahaaaaan     main yahaan [Repeat]


[Repeat]

===========
  Stanza
===========


E--8-10-11----11s13-13-10-----------------------------------------------
B-----------------------------------------------------------------------
G-----------------------------------------------------------------------
D-----------------------------------------------------------------------
A-----------------------------------------------------------------------
E-----------------------------------------------------------------------
   Oo   mere   humsfar



E--8-10-11----11s13-13-10-----------------------------------------------
B-----------------------------------------------------------------------
G-----------------------------------------------------------------------
D-----------------------------------------------------------------------
A-----------------------------------------------------------------------
E-----------------------------------------------------------------------
  pyaar  ki   raah  par



E--11~~10~~8~~---------11~~10~~8~~-----8s10-----------------------------
B--------------------------------------------13-11-13-------------------
G-----------------------------------------------------------------------
D-----------------------------------------------------------------------
A-----------------------------------------------------------------------
E-----------------------------------------------------------------------
   Saath  chale   hum    magar   kya  khabar




E------------11---------11--13-10---------------------------------------
B--13-13--13------------------------------------------------------------
G-----------------------------------------------------------------------
D-----------------------------------------------------------------------
A-----------------------------------------------------------------------
E-----------------------------------------------------------------------
   Raasteeeeeee   mein kahin



E------------11---------11--13-10---------------------------------------
B--13-13--13------------------------------------------------------------
G-----------------------------------------------------------------------
D-----------------------------------------------------------------------
A-----------------------------------------------------------------------
E-----------------------------------------------------------------------
  Rah gaye   hum nashin



E-----------------------11-11-10----------------------------------------
B--13-11-11s13----------------------------------------------------------
G--------------12-------------------------------------------------------
D-----------------------------------------------------------------------
A-----------------------------------------------------------------------
E-----------------------------------------------------------------------
  Tum Kahaaaannn     main yahaan [Repeat]


===========
Repeate [Stanza]
Repeat [Mukhda]
===========

Appreciate your likes, comments, suggestions, sharings & subscriptions :) :)

Saturday, December 28, 2013

[Anand] Zindagi Kaisi Hai Paheli Guitar Tab

A tribute to the legend Manna Dey...


Film: Anand
Song: Zindagi Kaisi Hai Paheli Guitar Tab
Singer: Manna Dey
===========================================
===========================================



Scale details, which i have used to play the song
===========================================
Scale: C Major Scale
Picking: Alternate picking


Symbols:
========
b = bending
p = pull off
h = hammering
s = sliding
~ = vibrato
. = staccato
[] = play the note very fast / optional



Note:
=====
Please copy paste the tabs to notepad for better spacing, formatting and readability.
Follow my video for proper sync up with the tabs.



===========
INTRO....
===========


E--8-10-12-13-15--------------------------------------------------------
B-----------------------------------------------------------------------
G-----------------------------------------------------------------------
D-----------------------------------------------------------------------
A-----------------------------------------------------------------------
E-----------------------------------------------------------------------



E--15p13--13p12--12p10--10p8--------------------------------------------
B------------------------------10-8-------------------------------------
G-----------------------------------------------------------------------
D-----------------------------------------------------------------------
A-----------------------------------------------------------------------
E-----------------------------------------------------------------------


E-------7-8-10-13--17-15------------------------------------------------
B--8-10-------------------15-13--15-13----------------------------------
G-----------------------------------------------------------------------
D-----------------------------------------------------------------------
A-----------------------------------------------------------------------
E-----------------------------------------------------------------------



===========
  Mukhda
===========


E--5s7-7-7s8---5-7--8p5--7p5--5p3-------3-------------------------------
B----------------------------------3-5-----5p3--------------------------
G-----------------------------------------------------------------------
D-----------------------------------------------------------------------
A-----------------------------------------------------------------------
E-----------------------------------------------------------------------
   Zindagi...  Kaisi Hai Pahe..li,  Haaaaaayeee....



E------------5s7-7-5~~~~------------------------------------------------
B--3-3-5-3----------------------8-6-5----5------------------------------
G-------------------------------------7----5~~~~------------------------
D----------------------------------------------~------------------------
A-----------------------------------------------------------------------
E-----------------------------------------------------------------------
  Kabhi To   Hansaaye.... Kabhi Ye Rulaaye




E---7-7-7s8---5-7--8-5--7s5--5s3--------3-------------------------------
B----------------------------------3-5---5-3----------------------------
G-----------------------------------------------------------------------
D-----------------------------------------------------------------------
A-----------------------------------------------------------------------
E-----------------------------------------------------------------------
    Zindagi..  Kaisi Hai Pahe..li,  Haaaaaayeee....



E------------5s7-7-5~~~~------------------------------------------------
B--3-3-5-3----------------------8-6-5----5------------------------------
G-------------------------------------7-----5~~-------------------------
D-----------------------------------------------------------------------
A-----------------------------------------------------------------------
E-----------------------------------------------------------------------
  Kabhi To   Hansaaye.... Kabhi Ye Rulaaye



=================
Music in between
=================


E-----------------5-----------------------------------------------------
B--7s8~~~~--7-8-7---7s8-8-----------------------------------------------
G-----------------------------------------------------------------------
D-----------------------------------------------------------------------
A-----------------------------------------------------------------------
E-----------------------------------------------------------------------



E--5--------------------------------------------------------------------
B----8-6-5----6s8-6~~~~-------------------------------------------------
G----------7------------------------------------------------------------
D-----------------------------------------------------------------------
A-----------------------------------------------------------------------
E-----------------------------------------------------------------------



E-----------------------------------------------------------------------
B--5s6--8-6-5----5h6p5-5------------------------------------------------
G-------------7---------------------------------------------------------
D-----------------------------------------------------------------------
A-----------------------------------------------------------------------
E-----------------------------------------------------------------------



E-----------------------------------------------------------------------
B--6-5------------------------------------------------------------------
G------7-5-5h7----------------------------------------------------------
D-----------------------------------------------------------------------
A-----------------------------------------------------------------------
E-----------------------------------------------------------------------



E-------------------5-3~~-----------------------------------------------
B--5--------------------------------------------------------------------
G----7-5-4-4h5----------------------------------------------------------
D-----------------------------------------------------------------------
A-----------------------------------------------------------------------
E-----------------------------------------------------------------------


===========
  Stanza
===========


[play below notes fast...]

E--5--------------------------------------------------------------------
B----8--6-5--6-6--5---5--6-6--------------------------------------------
G-------------------7---------------------------------------------------
D-----------------------------------------------------------------------
A-----------------------------------------------------------------------
E-----------------------------------------------------------------------
  Kabhi Dekho Man Nahi  Jaage



E----5----5-5----5-7-7-10----7h8p7--------------------------------------
B--6--------------------------------10-8--------------------------------
G-----------------------------------------------------------------------
D-----------------------------------------------------------------------
A-----------------------------------------------------------------------
E-----------------------------------------------------------------------
   Peechhe Peechhe Sapno Ke   Bhaaageeeee



E--8-8---5------------------------5----5--------------------------------
B----------8--6-5--6-6--5---5--6-----6---6------------------------------
G-------------------------7---------------------------------------------
D-----------------------------------------------------------------------
A-----------------------------------------------------------------------
E-----------------------------------------------------------------------
  he he...Kabhi Dekho Man Nahi Jaaa...aage...



E----5----5-5----5-7-7-10----7h8p7--------------------------------------
B--6--------------------------------10-8--------------------------------
G-----------------------------------------------------------------------
D-----------------------------------------------------------------------
A-----------------------------------------------------------------------
E-----------------------------------------------------------------------
   Peechhe Peechhe Sapno Ke   Bhaaageeeee




E-------7-8-----10-8-10s12 10-----12s13-12-10---------------------------
B--8-10-----------------------------------------------------------------
G-----------------------------------------------------------------------
D-----------------------------------------------------------------------
A-----------------------------------------------------------------------
E-----------------------------------------------------------------------
   Ek   Din Sapnon..   Ka  Raaaaahi.....



E--12-10----------------------------------------------------------------
B--------13-12--13-13--12-12-10-----------------------------------------
G----------------------------------12-10--9-----------------------------
D-----------------------------------------------------------------------
A-----------------------------------------------------------------------
E-----------------------------------------------------------------------
   Chalaa Jaaye Sap...no     Ke    Aage Kaha



=================
Music in between
=================


E--------------5--------------------------------------------------------
B----8~~~~--~8---8--6-8-6--5-6-5----5-----------------------------------
G---------------------------------7---7--5-7-5--5-4-5----4---4----------
D------------------------------------------------------7---7---5-7-5~~~~
A-----------------------------------------------------------------------
E-----------------------------------------------------------------------



E-----------------------------------------------------------------------
B-----------------------------------------------------------------------
G---------4--4-5--------------------------------------------------------
D--5-7--7---------------------------------------------------------------
A-----------------------------------------------------------------------
E-----------------------------------------------------------------------


===========
Repeate [Stanza]
Repeat [Mukhda]
===========

Any comment is highly appreciated.........

Sunday, September 1, 2013

[Aur Kaun] Haan Pehli Baar Guitar Tabs


===========================================
Film: Aur Kaun
Song: Haan Pehli Baar
Singer: Kishore Kumar
===========================================


Scale details, which i have used to play the song
===========================================
Scale: F# minor Scale (Or A Major Scale)
Picking: Alternate picking


Symbols:
========
b = bending
p = pull off
h = hammering
s = sliding
~ = vibrato
. = staccato
[] = play the note very fast / optional



Note:
=====
Please copy paste the tabs to notepad for better spacing, formatting and readability.
Follow my video for reference.




===========
INTRO....
===========

Play F# Minor barre chord once


E-------------------------------------4---5-4-7-5---7s9-----------------
B---------------------------------5-7-----------------------------------
G--------------4-6-4---7-6-4-6--7---------------------------------------
D--4-6-7-6---7----------------------------------------------------------
A-----------------------------------------------------------------------
E-----------------------------------------------------------------------



E--8-6------------------------------------------------------------------
B------9-7---9-8s9s8-6-5------------------------------------------------
G--------------------------6-4-5-6---4-5-6-6s7--------------------------
D-----------------------------------------------------------------------
A-----------------------------------------------------------------------
E-----------------------------------------------------------------------



E--------4-5-7s9--------------------------------------------------------
B----5-7----------------------------------------------------------------
G--6--------------------------------------------------------------------
D-----------------------------------------------------------------------
A-----------------------------------------------------------------------
E-----------------------------------------------------------------------



E--7-5-4-5--------------------------------------------------------------
B------------6-4-5-6----------------------------------------------------
G----------------------6-4-5-6------------------------------------------
D-------------------------------6-4-------------------------------------
A-----------------------------------------------------------------------
E-----------------------------------------------------------------------


F# minor barre chord



E--4s5--5-4---4----------------------------------------------------------
B-----------7---5--------------------------------------------------------
G-----------------6------------------------------------------------------
D-------------------7-4--------------------------------------------------
A------------------------------------------------------------------------
E------------------------------------------------------------------------



E------2--4-5-4--2------------------------------------------------------
B--2s3-------------3----------------------------------------------------
G-----------------------------------------------------------------------
D-----------------------------------------------------------------------
A-----------------------------------------------------------------------
E-----------------------------------------------------------------------



E--------5----------------------5---------------------------------------
B----7-----------7---7------7----------7---7----------------------------
G--6---6----6--6---6------6---6---6--6---6------------------------------
D-----------------------------------------------------------------------
A-----------------------------------------------------------------------
E-----------------------------------------------------------------------



===========
  Mukhda
===========

E------------9----------------------------------------------------------
B-------9-10------------------------------------------------------------
G--9s11--------11-------------------------------------------------------
D-----------------------------------------------------------------------
A-----------------------------------------------------------------------
E-----------------------------------------------------------------------
 Hmmm  Peheli Baar



E------------9----------------------------------------------------------
B-------9-10---11s13-11-------------------------------------------------
G--9s11-----------------------------------------------------------------
D-----------------------------------------------------------------------
A-----------------------------------------------------------------------
E-----------------------------------------------------------------------
  Haan Peheli  Baaaaar




E--9s10-10-9------------9-9---------------------------------------------
B------------12---12-10------12-10-10-9---------------------------------
G-----------------------------------------------------------------------
D-----------------------------------------------------------------------
A-----------------------------------------------------------------------
E-----------------------------------------------------------------------
  Ek     Ladki Mera Haath Pakadhkar




E--------------9--------------------------------------------------------
B--9-9--10-12----12--10-12--10-9----------------------------------------
G--------------------------------11-------------------------------------
D-----------------------------------------------------------------------
A-----------------------------------------------------------------------
E-----------------------------------------------------------------------
  Boli Haan Re  Haan aaan.....aaaan....


[Repeat above]

=================
Music in between
=================

E----------2-2-2-2-2-2-2------------------------------------------------
B--2-2-3-5--------------------------------------------------------------
G-----------------------------------------------------------------------
D-----------------------------------------------------------------------
A-----------------------------------------------------------------------
E-----------------------------------------------------------------------



E--------4-2------------------------------------------------------------
B--2-3-5-----5-5-5-5-5-5-5----------------------------------------------
G-----------------------------------------------------------------------
D-----------------------------------------------------------------------
A-----------------------------------------------------------------------
E-----------------------------------------------------------------------



E----4-7-4-------2-5-2--------------------------------------------------
B--5-------5---3-------3----2---2---2-----------------------------------
G-----------------------------4---4---4---------------------------------
D-----------------------------------------------------------------------
A-----------------------------------------------------------------------
E-----------------------------------------------------------------------



===========
  Stanza
===========


E-----------------------------------------------------------------------
B-----------------------------------------------------------------------
G------4----4-6-4-------------------------------------------------------
D--4-6---6--------6----4-6-4-4-4----------------------------------------
A-----------------------------------------------------------------------
E-----------------------------------------------------------------------
 Kisi Ko Na Pata Chala Kya Ho Gaya

[Repeat above]



[music...]
E-----------------------------------------------------------------------
B-------7-9--7-9--7-9-7-------------------------------------------------
G----7-------------------7-6--------------------------------------------
D--9-------------------------9------------------------------------------
A-----------------------------------------------------------------------
E-----------------------------------------------------------------------




E------7----7-9-7-------------------------------------------------------
B--7-9---9--------9--7--9-7-7-7-----------------------------------------
G-----------------------------------------------------------------------
D-----------------------------------------------------------------------
A-----------------------------------------------------------------------
E-----------------------------------------------------------------------
  Kisi Ko Na Pata Chala Kya Ho Gaya

[Repeat above]




E--12-10-9----------10-9--------------9---------------------------------
B----------12------------12-10------------------------------------------
G-----------------------------------------------------------------------
D-----------------------------------------------------------------------
A-----------------------------------------------------------------------
E-----------------------------------------------------------------------
  Chupke Se Woh     Pehlu Mein Aaaaaa Haa




E--12-10-9------------10-9----------------------------------------------
B----------12s14-12--------12-10-10-------------------------------------
G-----------------------------------------------------------------------
D-----------------------------------------------------------------------
A-----------------------------------------------------------------------
E-----------------------------------------------------------------------
  Chupke Se Wohhhh    Pehlu Mein Aa



E-----------------9-----------------------------------------------------
B--9-9-9-9--10-12----12--10-12--10-9------------------------------------
G------------------------------------11---------------------------------
D-----------------------------------------------------------------------
A-----------------------------------------------------------------------
E-----------------------------------------------------------------------
  Boli Mujhe Aa Re Aaaaa...aa..aaaa..aaa


[Repeat mukhda]



=================
Music in between
=================


E-----------------------------------------------------------------------
B-----------------------------------------------------------------------
G-------6-6-------------------------------------------------------------
D--3s5------------------------------------------------------------------
A-----------------------------------------------------------------------
E-----------------------------------------------------------------------




E------------5-4-7-5-----------------------------------------------------
B----------7----------6-6------------------------------------------------
G------6--------------------6-6------------------------------------------
D--4-7-------------------------------------------------------------------
A------------------------------------------------------------------------
E------------------------------------------------------------------------



E----------4--5-4--7-5-4------------------------------------------------
B------5s6----------------5-5-------------------------------------------
G--5s6-------------------------6-6--------------------------------------
D-----------------------------------------------------------------------
A-----------------------------------------------------------------------
E-----------------------------------------------------------------------




E------------4-5-7-7-7-7-7s9--------------------------------------------
B--------5-7------------------------------------------------------------
G----4-6----------------------------------------------------------------
D--7--------------------------------------------------------------------
A-----------------------------------------------------------------------
E-----------------------------------------------------------------------




E--4s5--5----------------------------------------------------------------
B---------7--------------------------------------------------------------
G-----------7---6-7-6----------------------------------------------------
D-----------------------7-4----------------------------------------------
A-----------------------------5-4----------------------------------------
E------------------------------------------------------------------------


===========
Repeate [Stanza]
Repeat [Mukhda]
===========


Any type of comments/suggetions/requests are highly appreciated.........

Saturday, August 17, 2013

[Chori Chori] Yeh Raat Bheegi Bheegi Guitar Tabs


===========================================
Film: Chori Chori
Song: Yeh Raat Bheegi Bheegi
Singer: Manna Dey & Lata Mangeshkar
===========================================


Scale details, which i have used to play the song
===========================================
Scale: C Harmonic Minor Scale
Picking: Alternate picking

Symbols:
========
b = bending
p = pull off
h = hammering
s = sliding
~ = vibrato
. = staccato
[] = play the note very fast / optional



Note:
=====
Please copy paste the tabs to notepad for better spacing, formatting and readability.
Follow my video for reference.



===========
INTRO....
===========


E------------3------3---------------------------------------------------
B--------3-4--------4---------------------------------------------------
G--4-5--------------5---------------------------------------------------
D-------------------5---------------------------------------------------
A-----------------------------------------------------------------------
E-----------------------------------------------------------------------
                   [C minor barre chord]


E-----------------------------------------------------------------------
B--6-4-3--------3---3---------------------------------------------------
G--------5--4-5-----4---------------------------------------------------
D-------------------5---------------------------------------------------
A-------------------5---------------------------------------------------
E-----------------------------------------------------------------------
                   [G major barre chord]


E-----------------------------------------------------------------------
B-------------------4---------------------------------------------------
G--4----------------5---------------------------------------------------
D----6-5-3-6--------6---------------------------------------------------
A-------------------6---------------------------------------------------
E-------------------4---------------------------------------------------
                   [Ab Major barre chord]


E-----------------------------------------------------------------------
B-------------------3---------------------------------------------------
G-------------------4---------------------------------------------------
D--5-3---5----------5---------------------------------------------------
A------6------------5---------------------------------------------------
E-------------------3---------------------------------------------------
                   [G major barre chord]


E-----------------------------------------------------------------------
B-----------------------------------------------------------------------
G-----------------------------------------------------------------------
D--3--------------------------------------------------------------------
A----6-5-3--------------------------------------------------------------
E----------6------------------------------------------------------------



E--------6--------------------------------------------------------------
B------6----------------------------------------------------------------
G----7------------------------------------------------------------------
D--8--------------------------------------------------------------------
A-----------------------------------------------------------------------
E-----------------------------------------------------------------------
  [arpeggiated Bb major barre chord]


E--------4--------------------------------------------------------------
B------4----------------------------------------------------------------
G----5------------------------------------------------------------------
D--6--------------------------------------------------------------------
A-----------------------------------------------------------------------
E-----------------------------------------------------------------------
  [arpeggiated Ab major barre chord]


E-----------------3-----------------------------------------------------
B---------3---3-6-------------------------------------------------------
G-------4---4-----------------------------------------------------------
D-----5---5-------------------------------------------------------------
A---5-------------------------------------------------------------------
E-----------------------------------------------------------------------
  [arpeggiated G major barre chord]


===========
  Mukhda
===========

E----11--11-10--8-10--8-------------------------------------------------
B--8--------------------8-----------------------------------------------
G-----------------------------------------------------------------------
D-----------------------------------------------------------------------
A-----------------------------------------------------------------------
E-----------------------------------------------------------------------
  Yeh raat bhigi bhigi



E----10--10-10--8--------------------------------------------------------
B--8--------------11--8-11-9-8-------------------------------------------
G------------------------------10----------------------------------------
D------------------------------------------------------------------------
A------------------------------------------------------------------------
E------------------------------------------------------------------------
  yeh mast fizza.yeeeennyeeeeeee



E-----------------------------------------------------------------------
B-----11s13-------------------------------------------------------------
G--10---------12-10-----------------------------------------------------
D--------------------12s13s12-10----------------------------------------
A-----------------------------------------------------------------------
E-----------------------------------------------------------------------
   Utha      dhire   dheereeeeee



E-----------------------------------------------------------------------
B-----------------------------------------------------------------------
G---------9--9--9-11--9-8-----------------------------------------------
D--10--10---------------------------------------------------------------
A-----------------------------------------------------------------------
E-----------------------------------------------------------------------
  yeh chand pyara     pyara


[Repeat three times]


=================
Music in between
=================

E-----------------------------------------------------------------------
B--------8-9-8------8---------------------------------------------------
G--9-10----------10---10--9---------------------------------------------
D-----------------------------------------------------------------------
A-----------------------------------------------------------------------
E-----------------------------------------------------------------------



E-----------------------------------------------------------------------
B-----------------------------------------------------------------------
G---------8-10-8-----8--------------------------------------------------
D--10-11----------11---11--10-------------------------------------------
A-----------------------------------------------------------------------
E-----------------------------------------------------------------------


===========
  Stanza
===========


E--7-8--8s10--10-10-10---11-13--11--10-10-10----------------------------
B-----------------------------------------------------------------------
G-----------------------------------------------------------------------
D-----------------------------------------------------------------------
A-----------------------------------------------------------------------
E-----------------------------------------------------------------------
  Ithlaati   hawa, neelam sa   gagan



E-----------------------------------------------------------------------
B--13-12--9-9-9---11-9--11-9--9--8-8-8----------------------------------
G-----------------------------------------------------------------------
D-----------------------------------------------------------------------
A-----------------------------------------------------------------------
E-----------------------------------------------------------------------
  Kaliyon pe yeh  behoshi     ki nami


[repeat music]
Repeate [Stanza]
Repeat [Mukhda]


Any comments are highly appreciated.........

Sunday, August 4, 2013

Happy Birthday Guitar Tabs

Happy Birthday Guitar Tabs
===========================================


Scale details, which i have used to play the song
===========================================
Scale: G Major Scale
Picking: Alternate picking


Note:
============================================
Please copy paste the tabs to notepad for better spacing, formatting and readability.
Refer the video for the chords and tabs





Make sure the lower E notes always sounds clean


E--3---------------------------------------------------------------------
B--3--3--------5------3--------------------------------------------------
G--0---------------------------------------------------------------------
D--0---------------------------------------------------------------------
A--2---------------------------------------------------------------------
E--3---------------------------------------------------------------------
  [Dn Up      Dn       Up]
  [Hold G major open chord]

  ha..ppy birthday...



E--3--------------------2-----------------------------------------------
B--3--------------------3-----------------------------------------------
G--2--------------------2-----------------------------------------------
D-----------------------------------------------------------------------
A-----------------------------------------------------------------------
E-----------------------------------------------------------------------
 [Dn Up]
 [hold D sus open and then release the pinky, i.e play D major open chord]
to.... you....



E--2--------------------------------------------------------------------
B--3--3--------5-------3------------------------------------------------
G--2--------------------------------------------------------------------
D--0--------------------------------------------------------------------
A-----------------------------------------------------------------------
E-----------------------------------------------------------------------
 [Dn Up Dn Up]
 [hold D major open chord]

  ha..ppy birthday...



E--5------------3--------------------------------------------------------
B---------------3--------------------------------------------------------
G---------------4--------------------------------------------------------
D---------------5--------------------------------------------------------
A---------------5--------------------------------------------------------
E---------------3--------------------------------------------------------
 to.... you....[G barre chord]



E--3--------------------10-------------------------------10-------8-------
B--3--3-----------------10--------------12---------------10-------8-------
G--4--------------------11--------------12----12---------11-------9-------
D--5--------------------12--------------12---------------12-------10------
A--5--------------------12--------------10---------------12-------10------
E--3--------------------10-------------------------------10-------8-------
[ Dn Up Dn Dn   Up Dn  Dn]
[ G barre chord, D baree chord,  G barre chord, D Barre,  C Barre]

 happy birth...........day to... Dear....   Friend...




E--8--8---------------------------------------------3---------------------
B--8-------12---8------10---------------------------3---------------------
G--9------------------------------------------------4---------------------
D--10-----------------------------------------------5---------------------
A--10-----------------------------------------------5---------------------
E--8------------------------------------------------3---------------------
 [Dn Up    Dn  Up
 [Hold C Barre chord and stretch the little finger, G barre]

 happy   birthday to... You....



E-------------------------------3-------2-------------------------------
B--3-3----------5-3-----------------------------------------------------
G-----------------------------------------------------------------------
D-----------------------------------------------------------------------
A-----------------------------------------------------------------------
E-----------------------------------------------------------------------
  happy birthday to you...



E-------------------------------5-------3-------------------------------
B--3-3---------5-3------------------------------------------------------
G-----------------------------------------------------------------------
D-----------------------------------------------------------------------
A-----------------------------------------------------------------------
E-----------------------------------------------------------------------
  happy birthday to you...





E---------------10---7--------------------------------------------------
B--3-3--------------------------8---------7-----------------------------
G-----------------------------------------------------9-----------------
D-----------------------------------------------------------------------
A-----------------------------------------------------------------------
E-----------------------------------------------------------------------
  happy birthday to dear      friend...



E--8-8---------7--------------------------------------------------------
B-----------------8--------------8s10------8----------------------------
G-----------------------------------------------------------------------
D-----------------------------------------------------------------------
A-----------------------------------------------------------------------
E-----------------------------------------------------------------------
  happy birthday to....   youuuuuu...





Any comments are highly appreciated.........

[Purab Aur paschim] Raghupati Raghav Raja Ram Guitar Tabs


===========================================
Film: Purab Aur paschim
Song: Raghupati Raghav Raja Ram
Singer: Mahendra Kapoor
===========================================

Note:
=====
Please copy paste the tabs to notepad for better spacing, formatting and readability.
Follow my video for proper sync up with the tabs and how to play.




E--------------------------5--7-8--7-8----------------------------------
B-----8-8-8--8s10--6-5---6----------------------------------------------
G---7-------------------------------------------------------------------
D-----------------------------------------------------------------------
A-----------------------------------------------------------------------
E-----------------------------------------------------------------------
  raghupati raaghav raajaaraam



E--4-5--4----------------6-5--------------------------------------------
B----------8--6-5-----6------8-----------------------------------------
G-----------------------------------------------------------------------
D-----------------------------------------------------------------------
A-----------------------------------------------------------------------
E-----------------------------------------------------------------------
  patit    paavan      siitaaraam


[repeat above]



E----7-7-------8-7-8----------------------------------------------------
B--8---------8----------------------------------------------------------
G-----------------------------------------------------------------------
D-----------------------------------------------------------------------
A-----------------------------------------------------------------------
E-----------------------------------------------------------------------
  siitaaraam siitaaraam



E--------8---10-11-10---8-----------------------------------------------
B--10-10------------------11-10-8---------------------------------------
G-----------------------------------------------------------------------
D-----------------------------------------------------------------------
A-----------------------------------------------------------------------
E-----------------------------------------------------------------------
  bhaj pyaare tuu siitaaraam



========
Music

E-----------------------------------------------------------------------
B---8-8--8-8--8---7-8-10-8--7-5-----------------------------------------
G-----------------------------------------------------------------------
D-----------------------------------------------------------------------
A-----------------------------------------------------------------------
E-----------------------------------------------------------------------



E-------5-5--7-8--7-8---------------------------------------------------
B--6-6------------------------------------------------------------------
G-----------------------------------------------------------------------
D-----------------------------------------------------------------------
A-----------------------------------------------------------------------
E-----------------------------------------------------------------------


E--5--6-6--6-5----------------------------------------------------------
B---------------8--8-8--6-5---------------------------------------------
G-----------------------------------------------------------------------
D-----------------------------------------------------------------------
A-----------------------------------------------------------------------
E-----------------------------------------------------------------------


E-----6-6--6-5----------------------------------------------------------
B--6------------8-------------------------------------------------------
G-----------------------------------------------------------------------
D-----------------------------------------------------------------------
A-----------------------------------------------------------------------
E-----------------------------------------------------------------------

========




E----7-7-7--7s5-5s3----------------7-8-7-8------------------------------
B--8--------------------------8s10--------------------------------------
G-----------------------------------------------------------------------
D-----------------------------------------------------------------------
A-----------------------------------------------------------------------
E-----------------------------------------------------------------------
  iishvar allaah tere naam...




E--------8---10-11-10---8-----------------------------------------------
B--10-10------------------11-10-8---------------------------------------
G-----------------------------------------------------------------------
D-----------------------------------------------------------------------
A-----------------------------------------------------------------------
E-----------------------------------------------------------------------
  sab ko     sanmati de bhagavaan

[repeat above]

[repeat raghupati raghaba ...]



Any comments are highly appreciated.........

Sunday, July 21, 2013

[Aashique2] Chahun Main Ya Naa Guitar Tabs


===========================================
Film: Aashique2
Song: Chahun Main Ya Naa
Singer:
===========================================


Scale details, which i have used to play the song
===========================================
Scale: Am Scale
Chords: Am G F [all bare chords....open chords can also be used]
Picking: Alternate picking

Symbols:
========
b = bending
p = pull off
h = hammering
s = sliding
~ = vibrato
. = staccato
[] = play the note very fast / optional



Note:
=====
Please copy paste the tabs to notepad for better spacing, formatting and readability.
Follow my video for reference



===========
INTRO....
===========


E--------0--------------------------------------------------------------
B-----------------------------------------------------------------------
G-----------------------------------------------------------------------
D------7----------------------------------------------------------------
A----7------------------------------------------------------------------
E--5--------------------------------------------------------------------
 [Hold Am bare chord and arpeggiate]

E-----------------------------------------------------------------------
B-----------------------------------------------------------------------
G------7----------------------------------------------------------------
D-----------------------------------------------------------------------
A----7------------------------------------------------------------------
E--5--------------------------------------------------------------------


E-----------------------------------------------------------------------
B-----------------------------------------------------------------------
G------5s4--------------------------------------------------------------
D-----------7-5--5s7----------------------------------------------------
A----7------------------------------------------------------------------
E--5--------------------------------------------------------------------



E-----------------------------------------------------------------------
B-------------------1---3-----------------------------------------------
G--------0--2----4--2---4-------------4-5-7-----------------------------
D------3---------5----------------5-7-----------------------------------
A----3------------------------------------------------------------------
E--1--------------------------------------------------------------------
 [Hold F bare chord] [Am Scale run]


[Repeat the above three times]



E------5----------------------------------------------------------------
B----5------------------------------------------------------------------
G-----------------------------------------------------------------------
D--7--------------------------------------------------------------------
A-----------------------------------------------------------------------
E-----------------------------------------------------------------------



E-----------------------------------------------------------------------
B--------3--------------------------------------------------------------
G------5----------------------------------------------------------------
D----5------------------------------------------------------------------
A--3--------------------------------------------------------------------
E-----------------------------------------------------------------------




E------0-3-2-0----------------------------------------------------------
B----3---------3-1------------------------------------------------------
G--2--------------------------------------------------------------------
D-----------------------------------------------------------------------
A-----------------------------------------------------------------------
E-----------------------------------------------------------------------
 [open D chord arpeggiate]


E--------5--------------------------------------------------------------
B----6-8---8-6-5--------------------------------------------------------
G--5-------------7------------------------------------------------------
D-----------------------------------------------------------------------
A-----------------------------------------------------------------------
E-----------------------------------------------------------------------



E-----------------------------------------------------------------------
B-----------------------------------------------------------------------
G--------7--4-5---------------------------------------------------------
D------7----------------------------------------------------------------
A----7------------------------------------------------------------------
E--5--------------------------------------------------------------------
 

Chords: Am G F [all bare chords....open chords can also be used]
===========
  Mukhda
===========


E----8-7--8-8-7---------------------------------------------------------
B---------------10--10s12--12-------------------------------------------
G--9---------------------------12---------------------------------------
D-----------------------------------------------------------------------
A-----------------------------------------------------------------------
E-----------------------------------------------------------------------
  tu hi ye mujh ko bata    de......



E-----------------------------------------------------------------------
B-----------------------------------------------------------------------
G------4-5-7--7s9-------------------------------------------------------
D--6s7------------------------------------------------------------------
A-----------------------------------------------------------------------
E-----------------------------------------------------------------------
  [music]



E-----------7-----------------------------------------------------------
B--88--8-10---10--10----------------------------------------------------
G-----------------------------------------------------------------------
D-----------------------------------------------------------------------
A-----------------------------------------------------------------------
E-----------------------------------------------------------------------
 chahun main ya    naa..



E-----------------------------------------------------------------------
B-----------------------------------------------------------------------
G--5-4----4h5-----------------------------------------------------------
D-----------------------------------------------------------------------
A-----------------------------------------------------------------------
E-----------------------------------------------------------------------
  [music]





E----8-7--8-8-7---------------------------------------------------------
B---------------10--10s12--12-------------------------------------------
G--9---------------------------12---------------------------------------
D-----------------------------------------------------------------------
A-----------------------------------------------------------------------
E-----------------------------------------------------------------------
  tu hi ye mujh ko bata    de......




E-----------7-----------------------------------------------------------
B--88--8-10---10--10----------------------------------------------------
G-----------------------------------------------------------------------
D-----------------------------------------------------------------------
A-----------------------------------------------------------------------
E-----------------------------------------------------------------------
  chahun main ya    naa..



E----8-7--8-8-7--10-10s12-10--------------------------------------------
B----------------------------12-----------------------------------------
G--9--------------------------------------------------------------------
D-----------------------------------------------------------------------
A-----------------------------------------------------------------------
E-----------------------------------------------------------------------
   apne tu dil ka pataa   de..



E-----------7--7s10-----------------------------------------------------
B--88--8-10----------12-10---10-----------------------------------------
G-----------------------------------------------------------------------
D-----------------------------------------------------------------------
A-----------------------------------------------------------------------
E-----------------------------------------------------------------------
  chahun main ya    naa..




E--12-12-12--10--10h12-10--8-10-----------------------------------------
B-----------------------------------------------------------------------
G-----------------------------------------------------------------------
D-----------------------------------------------------------------------
A-----------------------------------------------------------------------
E-----------------------------------------------------------------------
   itna   bata dun tujh   ko...



E--10-10-10--8--8h10-10--7-8--------------------------------------------
B-----------------------------------------------------------------------
G-----------------------------------------------------------------------
D-----------------------------------------------------------------------
A-----------------------------------------------------------------------
E-----------------------------------------------------------------------
  chahat   pe apni mujh     ko



E--8-8-8--7--7h8-8-----8-7----------------------------------------------
B-------------------10--------------------------------------------------
G-----------------------------------------------------------------------
D-----------------------------------------------------------------------
A-----------------------------------------------------------------------
E-----------------------------------------------------------------------
  yun to nehin ikhtiyaar...


[repeat above, except last line as below]


E--8-8-8--7--7h8-8-----10-7---8s7--7s5-5--------------------------------
B-------------------10--------------------------------------------------
G-----------------------------------------------------------------------
D-----------------------------------------------------------------------
A-----------------------------------------------------------------------
E-----------------------------------------------------------------------
   puchun tujhe   ek baar...  ho    o  o


[repeat mukhada]
Chords: Am G F [all bare chords....open chords can also be used]
===========
  Stanza
===========


[G chord triad then..]

E--7-8--7-----7-8-------------------------------------------------------
B---------10------------------------------------------------------------
G-----------------------------------------------------------------------
D-----------------------------------------------------------------------
A-----------------------------------------------------------------------
E-----------------------------------------------------------------------
  aisi  kabhi pehle



E--8-10--10s12--12-10---------------------------------------------------
B-----------------------------------------------------------------------
G-----------------------------------------------------------------------
D-----------------------------------------------------------------------
A-----------------------------------------------------------------------
E-----------------------------------------------------------------------
  hui na thi




E--8------7-------------8s7-7s5-5---------------------------------------
B----8-10---------------------------------------------------------------
G-----------------------------------------------------------------------
D-----------------------------------------------------------------------
A-----------------------------------------------------------------------
E-----------------------------------------------------------------------
  khwaishein ho o o

[repeat]

[repeat stanza]


Chords: Am G F [all bare chords....open chords can also be used]
=================
Music in between
=================

E----------------------------------7b~~--~5-7-7b8--7b8r7b8--7-8-10b-----
B------------------8b~~~~----8b--5--------------------------------------
G--9b~~~~--7------------------------------------------------------------
D-----------------------------------------------------------------------
A-----------------------------------------------------------------------
E-----------------------------------------------------------------------
 [b= bend up half step, r = release]



E---7-5-----------------------------------------------------------------
B-------8-6-------------------------------------------------------------
G-----------4-5---------------------------------------------------------
D-----------------------------------------------------------------------
A-----------------------------------------------------------------------
E-----------------------------------------------------------------------
 [just a C scale run]



===========
  Stanza
===========

[C chord triad then...]
E-----------------------------------------------------------------------
B--5-6--8-6--5-----5-6-5------------------------------------------------
G--------------7--------------------------------------------------------
D-----------------------------------------------------------------------
A-----------------------------------------------------------------------
E-----------------------------------------------------------------------
  mere chotte chotte khwab hai



E----7s8-7-5s3-5--5s7---------------------------------------------------
B--5--------------------------------------------------------------------
G-----------------------------------------------------------------------
D-----------------------------------------------------------------------
A-----------------------------------------------------------------------
E-----------------------------------------------------------------------
  khwabon mai geet hai



E-7-7-8s10-8--7---------------------------------------------------------
B---------------10s12-12------------------------------------------------
G-----------------------------------------------------------------------
D-----------------------------------------------------------------------
A-----------------------------------------------------------------------
E-----------------------------------------------------------------------
  geetoon main jindegi hai



E-----------------------------------------------------------------------
B--10-10--8-------------------------------------------------------------
G-----------9--8-8-8----------------------------------------------------
D-----------------------------------------------------------------------
A-----------------------------------------------------------------------
E-----------------------------------------------------------------------
  chaahat hi preet hai


[rest is played like the stanza]



[repeat everything]
Chords: Am G F [all bare chords....open chords can also be used]




Comments are highly appreciated