Saturday, March 3, 2012

Ek Pyar Ka Nagma Hai Guitar Tabs

Song: Ek Pyar Ka Nagma Hai
Film: shor
Singer: Lata

Scale i have used: D Major / B minor

Please copy and paste to notepad for better spacing and formatting.
Refer to my video for playing the notes.



---------------------------------------------------------------------


Intro
======
e------------------------9-7-------------------------------------------
B--------7-----7-8-10--------10-8-7--------10-8-10-7---10-8-10-7-------
G----7-9----------------------------9----------------------------------
D----------------------------------------------------------------------
A----------------------------------------------------------------------
E----------------------------------------------------------------------
e------2---2---3-------------2---2---3--------------999---777----------
B------------------5-2--------------------5-2-3-----------------101010-
G----2---2---2-------------2---2---2-----------------------------------
D----------------------------------------------------------------------
A----------------------------------------------------------------------
E----------------------------------------------------------------------

Mukhuda
========
e----------------------------------------------------------------------
B--------7--8---10--8--7------------------7--8---10--8--7--------------
G----7-9------------------------------7-9------------------------------
D----------------------------------------------------------------------
A----------------------------------------------------------------------
E----------------------------------------------------------------------
 Ik Pyar Ka   Naghma Hai             Mojon Ke Rawani Hai

e-----------9----------------7---------7-------------------------------
B----7-8-10--------------------10-8-10---------------------------------
G----------------------------------------------------------------------
D----------------------------------------------------------------------
A----------------------------------------------------------------------
E----------------------------------------------------------------------
 Zindagi Aur                Kuch Bhi Nahi Hai

e----7--------------------7--------------------------------------------
B------10---10-10-------8---10-8-7-------------------------------------
G---------9------------------------------------------------------------
D----------------------------------------------------------------------
A----------------------------------------------------------------------
E----------------------------------------------------------------------
    Teri Meri   Kahani Hai

====================
 Repeate Mukhuda
====================

Music in between
=================
e----------------------------------------------------------------------
B------------7-8-----7-7--7-----7--------------------------------------
G----7-9---7----------------9-9----------------------------------------
D--------9-------------------------------------------------------------
A----------------------------------------------------------------------
E----------------------------------------------------------------------

e---------10-9-7-7-----------9-----9-----------------------------------
B----7-10----------8------10----10---10----10-10-----------------------
G----------------------------------------------------------------------
D----------------------------------------------------------------------
A----------------------------------------------------------------------
E----------------------------------------------------------------------

e----------------------------------------------------------------------
B------------7-8-----7-7--7-----7--------------------------------------
G----7-9---7----------------9-9----------------------------------------
D--------9-------------------------------------------------------------
A----------------------------------------------------------------------
E----------------------------------------------------------------------
la la la lal la la la la la

Stanza 1
=========
e-------10-10-10-10-12--12-10-9-9---------------------------------------
B----10----------------------------------------------------------------
G----------------------------------------------------------------------
D----------------------------------------------------------------------
A----------------------------------------------------------------------
E----------------------------------------------------------------------
 Tu dhaar hai nadiya ki


e-------10-10-10-10-14--12-10-9----------------------------------------
B----10----------------------------------------------------------------
G----------------------------------------------------------------------
D----------------------------------------------------------------------
A----------------------------------------------------------------------
E----------------------------------------------------------------------
 Mai tera kinara hu

e-------8-8-8--8-10---8---------------10-----10-9----------------------
B----10-----------------10--12-----12-----12------10--10-10-12-10-7----
G----------------------------------------------------------------------
D----------------------------------------------------------------------
A----------------------------------------------------------------------
E----------------------------------------------------------------------
 Tu mera sahaara hai    main tera sahaara hoon

====================
Repeate Mukhda
===================
Music in between
=================
e-------2-2h3p2-----------2-3-3h5p3------------------------------------
B----------------5-3----5-----------5----------------------------------
G---2-2----------------------------------------------------------------
D----------------------------------------------------------------------
A----------------------------------------------------------------------
E----------------------------------------------------------------------

e----------5h7p5-------------5-----------------------------------------
B----5-7-8--------8-5------5---8-7-------------------------------------
G----------------------------------------------------------------------
D----------------------------------------------------------------------
A----------------------------------------------------------------------
E----------------------------------------------------------------------
repeate the above music
=============
Repeate Stanza 1
Repeate Mukhda
End with below section
==============

e----------------------------------------------------------------------
B------------7-8-----7-7--7-----7--------------------------------------
G----7-9---7----------------9-9----------------------------------------
D--------9-------------------------------------------------------------
A----------------------------------------------------------------------
E----------------------------------------------------------------------