Saturday, April 28, 2012

Churaliya Hai Tumne Jo Dilko Guitar Tab

Film : Yaadon Ki barat
Singer: Asha & Rafi

Please copy paste the tabs to notepad for better spacing, formatting and readability.

Follow my video for proper sync up with the tabs and how to play.



Symbols and meaning:
===================
b = bending  [e.g: 7b8b7 means bend half step UP from 7th fret and then release back to 7th]
p = pull off [e.g: 3p2 pull off FROM 3rd fret TO 2nd fret]
h = hammering [e.g: 2h3 hammer on 3rd fret FROM 2nd fret]
s =  sliding  [e.g: 5s4s5 slide DOWN from 5th fret to 4th and then slide UP back to 5th again]
picking:
========
Please use alternate picking always

Scale:
======
I have used A Harmonic minor and A major scale [A family]


Guitar Tabs:
============
Intro
=======

E------------------------------------0-------------------0--------------
B--------------------------------------0---------------0----------------
G--2--2-2--2--2-2---2--2-2---2--2-2------2-----------2------------------
D------------------------------------------3-------3--------------------
A--------------------------------------------0---0----------------------
E----------------------------------------------0------------------------
 [hold 003200 chord while playing the above]


E--------0---------------------------------------------------------------
B----------1p0-------------------------------------------------------------
G----2---------2-----2-------------------------------------------------------
D--2--------------2--------------------------------------------------------
A-----------------------------------------------------------------------
E-----------------------------------------------------------------------
 [hold 002200 chord while playing the above]


E--0---------------------------------------------------------------------
B----1p0-----------------------------------------------------------------
G--------2----2----------------------------------------------------------
D-----------3------------------------------------------------------------
A------------------------------------------------------------------------
E------------------------------------------------------------------------
 [hold 003200 chord while playing the above]


E-----------------------------------------------------------------------
B--1p0------------------------------------------------------------------
G------2-----2----------------------------------------------------------
D--------3-0------------------------------------------------------------
A-----------------------------------------------------------------------
E-----------------------------------------------------------------------
[hold 003200 chord while playing the above]


E-------------------0---------------------------------------------------
B--3-1p0----------0---0-------------------------------------------------
G--------2--1---1-------1---1-2-----------------------------------------
D-------------2-----------2---------------------------------------------
A-----------------------------------------------------------------------
E-----------------------------------------------------------------------


E-----------------------------------------------------------------------
B-------------0----0----0----0----0-------------------------------------
G--2-0---0-2----2----2----2----2----2-----------------------------------
D------2----------------------------------------------------------------
A-----------------------------------------------------------------------
E-----------------------------------------------------------------------

Mukhda
=======

E-----------------------------------------------------------------------
B--10-10--13-12-10--10--10h12-10----------------------------------------
G--------------------------------12-12----------------------------------
D--------------------------------------12-------------------------------
A-----------------------------------------------------------------------
E-----------------------------------------------------------------------
  Chura liya hai  tumne jo dil ko


E-----------------------------------------------------------------------
B--10-10--13-12-10--10--10h12-10-9--------------------------------------
G-----------------------------------------------------------------------
D-----------------------------------------------------------------------
A-----------------------------------------------------------------------
E-----------------------------------------------------------------------
  Nazar nahin churaana  sanam


E-----------------------------------------------------------------------
B--10-10--13-12-10--10--10h12-10----------------------------------------
G--------------------------------12-12----------------------------------
D--------------------------------------12-------------------------------
A-----------------------------------------------------------------------
E-----------------------------------------------------------------------
  Badalke meri   tum zindagaani


E-----------------------------------------------------------------------
B--10-10--13-12-10--10--10h12-10-10--------------------------------------
G-----------------------------------------------------------------------
D-----------------------------------------------------------------------
A-----------------------------------------------------------------------
E-----------------------------------------------------------------------
  Kahin badal na jaana  sanam


E--10---10-10-10--10h12-12p10----10-------------------------------------
B-----------------------------12----------------------------------------
G-----------------------------------------------------------------------
D-----------------------------------------------------------------------
A-----------------------------------------------------------------------
E-----------------------------------------------------------------------
  Oh,  le liya   dil,    


E--10---10-10-10--10h12-12p10----10-------10-10-9-----------------------
B-----------------------------12----------------------------------------
G-----------------------------------------------------------------------
D-----------------------------------------------------------------------
A-----------------------------------------------------------------------
E-----------------------------------------------------------------------
  haai  mera   dil    Haai


E-----------------------------------------------------------------------
B---10-13-12--10-13-12--10-13-12~~~~~~----------------------------------
G-----------------------------------------------------------------------
D-----------------------------------------------------------------------
A-----------------------------------------------------------------------
E-----------------------------------------------------------------------
  dil lekar mujhko na behlaana


E-----------------------------------------------------------------------
B--10-10--13-12-10--10--10h12-10----------------------------------------
G--------------------------------12-12----------------------------------
D--------------------------------------12-------------------------------
A-----------------------------------------------------------------------
E-----------------------------------------------------------------------
   Chura liya hai  tumne jo dil ko [Play G Major bar chord]


E-----------------------------------------------------------------------
B--10-10--13-12-10--10--10h12-10-9--------------------------------------
G-----------------------------------------------------------------------
D-----------------------------------------------------------------------
A-----------------------------------------------------------------------
E-----------------------------------------------------------------------
  Nazar nahin churaana  sanam [Play E Major bar chord]


E-----------------------------------------------------------------------
B--10-10--13-12-10--10--10h12-10----------------------------------------
G--------------------------------12-12----------------------------------
D--------------------------------------12-------------------------------
A-----------------------------------------------------------------------
E-----------------------------------------------------------------------
  Badalke meri   tum zindagaani[Play G bar chord]


E-----------------------------------------------------------------------
B--10-10--13-12-10--10--10h12-10-10-------------------------------------
G-----------------------------------------------------------------------
D-----------------------------------------------------------------------
A-----------------------------------------------------------------------
E-----------------------------------------------------------------------
  Kahin badal na jaana  sanam....


====Music in between=============

E--10-10-10-10b12b10-10----10-------------------------------------------
B-----------------------12----------------------------------------------
G-----------------------------------------------------------------------
D-----------------------------------------------------------------------
A-----------------------------------------------------------------------
E-----------------------------------------------------------------------


E--10-10-10-10b12b10-10----10-------------------------------------------
B-----------------------12----------------------------------------------
G-----------------------------------------------------------------------
D-----------------------------------------------------------------------
A-----------------------------------------------------------------------
E-----------------------------------------------------------------------


E--10-10-9--------------------------------------------------------------
B-----------------------------------------------------------------------
G-----------------2------2-4-----2------2-4-----------------------------
D---------------2---2--2-------2---2--2---------------------------------
A-----------------------------------------------------------------------
E-----------------------------------------------------------------------
==========


Antra
=======


E-----------10-10--10-12-10---------------------------------------------
B--10-12-13--------------------13-12---10-12-13--13-13-13---------------
G-----------------------------------------------------------------------
D-----------------------------------------------------------------------
A-----------------------------------------------------------------------
E-----------------------------------------------------------------------
      Bahaar banke  aaoon   kabhi tumhaari duniya mein


E-----------10-10--10-12-10---------------------------------------------
B--10-12-13--------------------13-12---10-12-10--10-10-10---------------
G-----------------------------------------------------------------------
D-----------------------------------------------------------------------
A-----------------------------------------------------------------------
E-----------------------------------------------------------------------
     Guzar na jaaye yeh din  kahin isi tamanna mein

[Repeat above part]


E--10---10-10-10--10h12-12p10----10-------------------------------------
B-----------------------------12----------------------------------------
G-----------------------------------------------------------------------
D-----------------------------------------------------------------------
A-----------------------------------------------------------------------
E-----------------------------------------------------------------------
  Tum mere ho,


E--10---10-10-10--10h12-12p10----10-------10-10-9-----------------------
B-----------------------------12----------------------------------------
G-----------------------------------------------------------------------
D-----------------------------------------------------------------------
A-----------------------------------------------------------------------
E-----------------------------------------------------------------------
  ho tum mere ho   Aaj tum


E-----------------------------------------------------------------------
B---10-13-12--10-13-12--10-13-12~~~~~~----------------------------------
G-----------------------------------------------------------------------
D-----------------------------------------------------------------------
A-----------------------------------------------------------------------
E-----------------------------------------------------------------------
  itna vaada karte jaana....churaliya


E-----------------------------------------------------------------------
B--10-10--13-12-10--10--10h12-10----------------------------------------
G--------------------------------12-12----------------------------------
D--------------------------------------12-------------------------------
A-----------------------------------------------------------------------
E-----------------------------------------------------------------------
   Chura liya hai  tumne jo dil ko [Play G Major bar chord]


E-----------------------------------------------------------------------
B--10-10--13-12-10--10--10h12-10-9--------------------------------------
G-----------------------------------------------------------------------
D-----------------------------------------------------------------------
A-----------------------------------------------------------------------
E-----------------------------------------------------------------------
  Nazar nahin churaana  sanam [Play E Major bar chord]


E-----------------------------------------------------------------------
B--10-10--13-12-10--10--10h12-10----------------------------------------
G--------------------------------12-12----------------------------------
D--------------------------------------12-------------------------------
A-----------------------------------------------------------------------
E-----------------------------------------------------------------------
  Badalke meri   tum zindagaani[Play G bar chord]


E-----------------------------------------------------------------------
B--10-10--13-12-10--10--10h12-10-10-------------------------------------
G-----------------------------------------------------------------------
D-----------------------------------------------------------------------
A-----------------------------------------------------------------------
E-----------------------------------------------------------------------
  Kahin badal na jaana  sanam....


====Music in between============


E-----------------------------------------------------------------------
B------3s5--------------------------------------------------------------
G--1s2-------2-2-2--2h4p2-----------------------------------------------
D-------------------------5---------------------------------------------
A-----------------------------------------------------------------------
E-----------------------------------------------------------------------


E-----------------------------------------------------------------------
B-----------------------------------------------------------------------
G------5s7--4-4-4--4h5p4-2----------------------------------------------
D--4s5------------------------------------------------------------------
A-----------------------------------------------------------------------
E-----------------------------------------------------------------------
[repeat above]


Mukhda - II
==============


E-----------------------------------------------------------------------
B----0-1-3-3--3-5-3--1-0-----0-1--1-1-1---------------------------------
G--2-----------------------2--------------------------------------------
D-----------------------------------------------------------------------
A-----------------------------------------------------------------------
E-----------------------------------------------------------------------
  Hooo Sajaoonga lut kar bhi, Tere badan ki daali ko


E-----------------------------------------------------------------------
B----0-1-3-3--3-5-3--1-0-----1-0----------------------------------------
G--2-----------------------2-----2-2-2----------------------------------
D-----------------------------------------------------------------------
A-----------------------------------------------------------------------
E-----------------------------------------------------------------------
  Lahoo jigar ka doonga, Hansee labon ki laali ko


E-----------------------------------------------------------------------
B--3-3-3-3s5--5-3---3----3-3-3--3h5--5-3---3----------------------------
G-----------------4----------------------4------------------------------
D-----------------------------------------------------------------------
A-----------------------------------------------------------------------
E-----------------------------------------------------------------------
  Tum mere ho,  ho   Tum mere ho,


E-----------------------------------------------------------------------
B--3-3-------1-0-----1-0----1-0----1-0----------------------------------
G------4---2-------2------2------2--------------------------------------
D-----------------------------------------------------------------------
A-----------------------------------------------------------------------
E-----------------------------------------------------------------------
  aaj tum,   itna vaada karte jaana....churaliya


E-----------------------------------------------------------------------
B-----------------------------------------------------------------------
G--2-2--5-4-2--2-2h4-2--------------------------------------------------
D----------------------5------------------------------------------------
A------------------------5----------------------------------------------
E-----------------------------------------------------------------------
   Chura liya hai  tumne jo dil ko  [Play G Major bar chord]


E-----------------------------------------------------------------------
B-----------------------------------------------------------------------
G--2-2--5-4-2--2-2h4-2-1-------------------------------------------------
D-----------------------------------------------------------------------
A-----------------------------------------------------------------------
E-----------------------------------------------------------------------
  Nazar nahin churaana  sanam [Play E major open chord]


E-----------------------------------------------------------------------
B-----------------------------------------------------------------------
G--2-2--5-4-2--2-2h4-2--------------------------------------------------
D----------------------5------------------------------------------------
A------------------------5----------------------------------------------
E-----------------------------------------------------------------------
  Badalke meri  tum zindagaani [Play G Major bar chord]


E-----------------------------------------------------------------------
B-----------------------------------------------------------------------
G--2-2--5-4-2--2-2h4-2-2-------------------------------------------------
D-----------------------------------------------------------------------
A-----------------------------------------------------------------------
E-----------------------------------------------------------------------
   Kahin badal na jaana  sanam....


E-----------------------------------------------------------------------
B-----------------------------------------------------------------------
G--2-2-2--4-2-2---2-2-2--4-2-2---2-2-2--4-2-2---------------------------
D-----------------------------------------------------------------------
A-----------------------------------------------------------------------
E-----------------------------------------------------------------------
hum hummmm hum hum  hum  hum hum.........



Enjoy :)