Sunday, April 29, 2012

Pal Pal Dil Ke Paas Guitar Tab

Song: Pal Pal Dil Ke Paas Tu Reheti Hai
Singer: Kishore Kumar
Film: BlackMail


Please copy paste the tabs to notepad for better spacing, formatting and readability.

Follow my video for proper sync up with the tabs and how to play.




Symbols and meaning:
===================
b = bending  [e.g: 7b8b7 means bend half step UP from 7th fret and then release back to 7th]
p = pull off [e.g: 3p2 pull off FROM 3rd fret TO 2nd fret]
h = hammering [e.g: 2h3 hammer on 3rd fret FROM 2nd fret]
s =  sliding  [e.g: 5s4s5 slide DOWN from 5th fret to 4th and then slide UP back to 5th again]
~ = vibrato

picking:
========
Please use alternate picking always

Scale:
======
I have used F# Major Scale


Guitar Tabs:
============

Intro
=====

E-----------------------------------------------------------------------
B---------2-------------------------------------------------------------
G-----------4---3-1-4-3-------------------------------------------------
D------4----------------------------------------------------------------
A--2s4------------------------------------------------------------------
E-----------------------------------------------------------------------

[Strum down all the notes of F# Major Bar chord slowly...]

E-----------------------------------------------------------------------
B-----------------------------------------------------------------------
G--1-4-3-1--------------------------------------------------------------
D----------4-3----------------------------------------------------------
A-----------------------------------------------------------------------
E-----------------------------------------------------------------------

[Strum down all the notes of F# Major Bar chord slowly...]

E-----------------------------------------------------------------------
B-----------------------------------------------------------------------
G--1-3-4----------------------------------------------------------------
D-----------------------------------------------------------------------
A-----------------------------------------------------------------------
E-----------------------------------------------------------------------


[Play below notes in quick succession....]
E-----------------------------------------------------------------------
B---------2--------------------------------------------2-2-2-2----------
G-----------4-3-1-4-3-1-4-3-1------------------3-3-3-3------------------
D------4----------------------4-3-1-3--4-4-4-4--------------------------
A--2s4------------------------------------------------------------------
E-----------------------------------------------------------------------

E-----------------------------------------------------------------------
B-----------------------------------------------------------------------
G--3-3-3-3--2s3-3-3-3--2s3-3-3-3---1-3-4--------------------------------
D-----------------------------------------------------------------------
A-----------------------------------------------------------------------
E-----------------------------------------------------------------------

E------------6-6-6-6--9-9-9-9--6-6-6-6----------------------------------
B--6s7-7-7-7------------------------------------------------------------
G-----------------------------------------------------------------------
D-----------------------------------------------------------------------
A-----------------------------------------------------------------------
E-----------------------------------------------------------------------

E--5s6-6-6-6--5s6-6-6-6-------------------------------------------------
B---------------------------6-7-----------------------------------------
G-------------------------8---------------------------------------------
D-----------------------------------------------------------------------
A-----------------------------------------------------------------------
E-----------------------------------------------------------------------


Mukhda
=======

E------------6-7--------------------------------------------------------
B-----6--7-------9-------------6--6h7-7---------------------------------
G--8------------------8-8--8--------------------------------------------
D-----------------------------------------------------------------------
A-----------------------------------------------------------------------
E-----------------------------------------------------------------------
 Pal Pal Dil Ke Paas, Tum Rehti Ho.....

E--6--7--7s9---11-9-9---------------------------------------------------
B-----------------------9-9--9-12-12--11~~~-----------------------------
G-----------------------------------------------------------------------
D-----------------------------------------------------------------------
A-----------------------------------------------------------------------
E-----------------------------------------------------------------------
  Jeevan Meethi Pyaas   Yeh Kehti Ho.....

E-----------------------------------------------------------------------
B--11-9-----------------------------------------------------------------
G-------11s10-----------------------------------------------------------
D-----------------------------------------------------------------------
A-----------------------------------------------------------------------
E-----------------------------------------------------------------------

[Repeat Mukhda]

Music in between
===================

E--6-------6-7-9s11--11-11--11-14--14-14--14-13--11h13-11--11-11-11-11--
B----7-9----------------------------------------------------------------
G-----------------------------------------------------------------------
D-----------------------------------------------------------------------
A-----------------------------------------------------------------------
E-----------------------------------------------------------------------

E--6--6h7-6--6-6----6h7-6--6-6----6h7-6--6-6----6h7-6--6-6--------------
B-----------------------------------------------------------------------
G-----------------------------------------------------------------------
D-----------------------------------------------------------------------
A-----------------------------------------------------------------------
E-----------------------------------------------------------------------

E--6-------6-7-9s11--11-11--11-14--14-14--14-13--11h13-11--11-11-11-11--
B----7-9----------------------------------------------------------------
G-----------------------------------------------------------------------
D-----------------------------------------------------------------------
A-----------------------------------------------------------------------
E-----------------------------------------------------------------------

E--7--7h9-7--7-7----7h9-7--7-7----7h9-7--7-7----7h9-7--7-7--------------
B-----------------------------------------------------------------------
G-----------------------------------------------------------------------
D-----------------------------------------------------------------------
A-----------------------------------------------------------------------
E-----------------------------------------------------------------------

E----6----------------------6-------------------------------------------
B------9-7-6---6-7------------9-7-6-----7-------------------------------
G--6---------8------------6---------6-8---------------------------------
D-----------------------------------------------------------------------
A-----------------------------------------------------------------------
E-----------------------------------------------------------------------


Antra
=======

E-------------------------6---------------------------------------------
B---------------------------9--9-7--6-----------------------------------
G--6-8--8-8-8-8-8-------8-------------8-8s10s8-6------------------------
D-----------------------------------------------------------------------
A-----------------------------------------------------------------------
E-----------------------------------------------------------------------
  Har Shyam Aankhon Par, Tera Aanchal Lehraye


E----9--9-9-9s11---9----------------------------------------------------
B--------------------12-12-------12-11-9-9--9-12-12-11~~----------------
G--6--------------------------------------------------------------------
D-----------------------------------------------------------------------
A-----------------------------------------------------------------------
E-----------------------------------------------------------------------
  Har Raat Yaadon   Ki,  Baarat Le Aaye....


E-----------------------------------------------------------------------
B--11-9--9-11-11--9-----------------------------------------------------
G-------------------11--11----------------------------------------------
D--------------------------11-------------------------------------------
A-----------------------------------------------------------------------
E-----------------------------------------------------------------------
  Main Saans Leta Hoon


E-----------------------------------------------------------------------
B--11-11--9-11-11--9----------------------------------------------------
G--------------------11-11-11-------------------------------------------
D-----------------------------------------------------------------------
A-----------------------------------------------------------------------
E-----------------------------------------------------------------------
  Teri Khushboo Aati Hai

E-----------------------------------------------------------------------
B--11-9--9-11-11--9-----------------------------------------------------
G-------------------11--11----------------------------------------------
D--------------------------11-------------------------------------------
A-----------------------------------------------------------------------
E-----------------------------------------------------------------------
  Ek Mehka Mehka Sa


E-----------------------------------------------------------------------
B--11-11--9-11-11--9----------------------------------------------------
G--------------------11-11-11-------------------------------------------
D-----------------------------------------------------------------------
A-----------------------------------------------------------------------
E-----------------------------------------------------------------------
  Paigham Laati Hai


E-----9--9-9--9h11--9---------------------------------------------------
B---------------------12-12-----12-11-9-9--9-12-12-11-------------------
G--11-------------------------------------------------------------------
D-----------------------------------------------------------------------
A-----------------------------------------------------------------------
E-----------------------------------------------------------------------
  Meri Dil Ki Dhadkan Bhi,  Tere Geet Gaati Hai.......


E-----------------------------------------------------------------------
B--11-9-----------------------------------------------------------------
G-------11s10-----------------------------------------------------------
D-----------------------------------------------------------------------
A-----------------------------------------------------------------------
E-----------------------------------------------------------------------
[music...]

[Repeat Mukhda...]


Music in between
=================

E-----------------------------------------------------------------------
B-----------------------------------------------------------------------
G--------------------6-6-6-6--------------------------------------------
D------------8-8-8-8---------8-8-8-8--6s8-8-8-8--6s8-8-8-8--------------
A--8s9-9-9-9-------------------------------------------------6-8-9------
E-----------------------------------------------------------------------


E------------6-6-6-6--9-9-9-9--6-6-6-6----------------------------------
B--6s7-7-7-7------------------------------------------------------------
G-----------------------------------------------------------------------
D-----------------------------------------------------------------------
A-----------------------------------------------------------------------
E-----------------------------------------------------------------------


E--5s6-6-6-6--5s6-6-6-6-------------------------------------------------
B---------------------------6-7-----------------------------------------
G-------------------------8---------------------------------------------
D-----------------------------------------------------------------------
A-----------------------------------------------------------------------
E-----------------------------------------------------------------------

[Repeat Antra]
[Repeat Mukhda]

Enjoy :)