Saturday, October 13, 2012

Tere Liye Veer Zara Guitar Tabs & Lead



===========================================
Film: Veer Zara
Song: Tere Liye
Singer: Lata & Roop Kumar
===========================================


Scale details, which i have used to play the song
===========================================
Scale: C#m Scale
Picking: Alternate picking


Symbols:
========
b = bending
p = pull off
h = hammering
s = sliding
~ = vibrato
. = staccato
[] = play the note very fast / optional



Note:
=====
Please copy paste the tabs to notepad for better spacing, formatting and readability.
Follow my video for proper sync up with the tabs and how to play.



===========
INTRO....
===========


E--4-7-5-4--4--4-4-----5p4----------------------------------------------
B--------------------------7--7-7---------------------------------------
G-----------------------------------------------------------------------
D-----------------------------------------------------------------------
A-----------------------------------------------------------------------
E-----------------------------------------------------------------------


E--4--------------------------------------------------------------------
B----7--7-5--5-5-4----4-4h5---------------------------------------------
G-------------------6---------------------------------------------------
D-----------------------------------------------------------------------
A-----------------------------------------------------------------------
E-----------------------------------------------------------------------



E-----------------------------------------------------------------------
B--5-4------------------------------------------------------------------
G------6-4--4s6-6-6-----------------------------------------------------
D-----------------------------------------------------------------------
A-----------------------------------------------------------------------
E-----------------------------------------------------------------------


E-----------------------------------------------------------------------
B--5-4------------------------------------------------------------------
G------6-4--4s6-6-6-----------------------------------------------------
D-----------------------------------------------------------------------
A-----------------------------------------------------------------------
E-----------------------------------------------------------------------


E----------------7-9--9s11-11-------------------------------------------
B----4-5s7--9s10--------------------------------------------------------
G--6--------------------------------------------------------------------
D-----------------------------------------------------------------------
A-----------------------------------------------------------------------
E-----------------------------------------------------------------------

E--12-11-9----9--9-9----------------------------------------------------
B----------12-----------------------------------------------------------
G-----------------------------------------------------------------------
D-----------------------------------------------------------------------
A-----------------------------------------------------------------------
E-----------------------------------------------------------------------

E-----------------------------------------------------------------------
B--9h10p9----9--9-9-----------------------------------------------------
G---------11------------------------------------------------------------
D-----------------------------------------------------------------------
A-----------------------------------------------------------------------
E-----------------------------------------------------------------------

[Repeat above]


===========
  Mukhda
===========

E--4s7-5-4--4--4-4-----5p4----------------------------------------------
B--------------------------7--7-7---------------------------------------
G-----------------------------------------------------------------------
D-----------------------------------------------------------------------
A-----------------------------------------------------------------------
E-----------------------------------------------------------------------
 Tere liyeee hum hain jiyeeee


E--4--------------------------------------------------------------------
B----7--7-5--5-5-4----4-4h5---------------------------------------------
G-------------------6---------------------------------------------------
D-----------------------------------------------------------------------
A-----------------------------------------------------------------------
E-----------------------------------------------------------------------
  honton    ko    siye

[Repeat]


E-----------------------------------------------------------------------
B--5-4------------------------------------------------------------------
G------6-4--4s6-6-6-----------------------------------------------------
D-----------------------------------------------------------------------
A-----------------------------------------------------------------------
E-----------------------------------------------------------------------
  Dil mein magar    


E-----------------------------------------------------------------------
B--5-4------------------------------------------------------------------
G------6-4--4s6-6-6-----------------------------------------------------
D-----------------------------------------------------------------------
A-----------------------------------------------------------------------
E-----------------------------------------------------------------------
 jalte    rahe


E----------------7-9--9s11-11-------------------------------------------
B----4-5s7--9s10--------------------------------------------------------
G--6--------------------------------------------------------------------
D-----------------------------------------------------------------------
A-----------------------------------------------------------------------
E-----------------------------------------------------------------------
  chaahat ke diyeeeeee



E--12-11-9----9--9-9----------------------------------------------------
B----------12-----------------------------------------------------------
G-----------------------------------------------------------------------
D-----------------------------------------------------------------------
A-----------------------------------------------------------------------
E-----------------------------------------------------------------------
  Tere liyeeeee


E-----------------------------------------------------------------------
B--9h10p9----9--9-9-----------------------------------------------------
G---------11------------------------------------------------------------
D-----------------------------------------------------------------------
A-----------------------------------------------------------------------
E-----------------------------------------------------------------------
  Tere liyeeeeeee

[Repeat above]


===========
  Stanza
===========


E-----------------------------------------------------------------------
B----6-6----7-9-9s11--9--9-7-6------------------------------------------
G--6--------------------------------------------------------------------
D-----------------------------------------------------------------------
A-----------------------------------------------------------------------
E-----------------------------------------------------------------------
  Zindagi  le ke   aayi hai


E-----------------------------------------------------------------------
B--6--6-7---------------------------------------------------------------
G---------8-----6-6h8---------------------------------------------------
D-------------9---------------------------------------------------------
A-----------------------------------------------------------------------
E-----------------------------------------------------------------------
  beete dinon  ki   kitaab
  [repeat]



E------4-6---6p4-7-6---------4-5-5-5s7--5-4-----------------------------
B--4-7---------------------7--------------------------------------------
G-----------------------------------------------------------------------
D-----------------------------------------------------------------------
A-----------------------------------------------------------------------
E-----------------------------------------------------------------------
  Ghere hain ab  hamein  yaadein be  hisaaab



E----9-8-9----6-7-6-----------------------------------------------------
B--9--------9-----------------------------------------------------------
G-----------------------------------------------------------------------
D-----------------------------------------------------------------------
A-----------------------------------------------------------------------
E-----------------------------------------------------------------------
  Bin poochhe  mile mujhe


E--7p6------------------------------------------------------------------
B------9----------------------------------------------------------------
G--------9---8-6-9-8----------------------------------------------------
D-----------------------------------------------------------------------
A-----------------------------------------------------------------------
E-----------------------------------------------------------------------
  kitne saare jawaab

[Repeat [Mukhda]]


===========
Repeate [Stanza]
Repeat [Mukhda]
===========

Comments are highly appreciated.........